Kurs gry na gitarze

Proste riffy gitarowe

Riffem nazywamy krótki, powtarzający sie charakterystyczny motyw w utworze.

Istnieje wiele prostych riffów, które mogą posłużyć nam jako idealne ćwiczenia na początek nauki gry na gitarze. Często do ich zagrania wystarczy jedna struna!

Tabulatury do riffów występujących w tym ćwiczeniu:

Riff #1

e |--------------------------|
H |--------------------------|
G |--------------------------|
D |--------------------------|
A |--------------------------|
E |--0--0--2--0--3--0--5--4--|

Riff #2

e |-------------------------------|
H |-------------------------------|
G |-------------------------------|
D |-------------------------------|
A |-------------------------------|
E |--0--5--0--3--0----0--0--0--0--|

Riff #3

e |-----------------------------------------------|
H |-----------------------------------------------|
G |-----------------------------------------------|
D |-----------------------------------------------|
A |-----------------------------------------------|
E |--5--5--5----3--3--3----1--1--1----0--0--0--0--|

Riff #4

e |-------------------------------------|
H |-------------------------------------|
G |-------------------------------------|
D |-------------------------------------|
A |-------------------------------------|
E |--0--3--5--0--3--6-5--0--3--5--3--0--|

Riff #5

e |---------------------------------------|
H |---------------------------------------|
G |---------------------------------------|
D |---------------------------------------|
A |---------------------------------------|
E |--0--3--3-5-5---8-7-8-7-8--3--3--5--5--|

Riff #6

e |------------------------------------|
H |------------------------------------|
G |------------------------------------|
D |------------------------------------|
A |------------------------------------|
E |--12--12--10--12--7--6--5--0--3--0--|