Kurs gry na gitarze

Proste melodie na gitarę

e |--------------|--0--0--------|--------------|--------------|
H |--------3--3--|--------3-----|--1--1--0--0--|--------------|
G |--0--0--------|--------------|--------------|--2--2--0-----|
D |--------------|--------------|--------------|--------------|
A |--------------|--------------|--------------|--------------|
E |--------------|--------------|--------------|--------------|

e |--------------|--------------|--------------|--------------|
H |--3--3--1--1--|--0--0--------|--3--3--1--1--|--0--0--------|
G |--------------|--------2-----|--------------|--------2-----|
D |--------------|--------------|--------------|--------------|
A |--------------|--------------|--------------|--------------|
E |--------------|--------------|--------------|--------------|

e |--------------|--0--0--------|--------------|--------------|--3-----------|
H |--------3--3--|--------3-----|--1--1--0--0--|--------------|--0-----------|
G |--0--0--------|--------------|--------------|--2--2--0-----|--0-----------|
D |--------------|--------------|--------------|--------------|--------------|
A |--------------|--------------|--------------|--------------|--------------|
E |--------------|--------------|--------------|--------------|--------------|
e |--0--0--0-----|--0--0--0-----|--0--3--------|--0-----------|
H |--------------|--------------|--------1--3--|--1-----------|
G |--------------|--------------|--------------|--0-----------|
D |--------------|--------------|--------------|--------------|
A |--------------|--------------|--------------|--------------|
E |--------------|--------------|--------------|--------------|

e |--1--1--1--1--|--1--0--0--0--|--0--------0--|--------3-----|
H |--------------|--------------|-----3--3-----|--3-----0-----|
G |--------------|--------------|--------------|--------0-----|
D |--------------|--------------|--------------|--------------|
A |--------------|--------------|--------------|--------------|
E |--------------|--------------|--------------|--------------|

e |--0--0--0-----|--0--0--0-----|--0--3--------|--0-----------|
H |--------------|--------------|--------1--3--|--1-----------|
G |--------------|--------------|--------------|--0-----------|
D |--------------|--------------|--------------|--------------|
A |--------------|--------------|--------------|--------------|
E |--------------|--------------|--------------|--------------|

e |--1--1--1--1--|--1--0--0--0--|--3--3--1-----|--------0-----|
H |--------------|--------------|-----------3--|--1-----1-----|
G |--------------|--------------|--------------|--------0-----|
D |--------------|--------------|--------------|--------------|
A |--------------|--------------|--------------|--------------|
E |--------------|--------------|--------------|--------------|
e |--12-11-12-11-12-7-10-8-5--------5-7-------7-8---0--|
H |-------------------------------5---------9----------|
G |-----------------------------5---------9------------|
D |----------------------------------------------------|
A |----------------------------------------------------|
E |----------------------------------------------------|

e |--12-11-12-11-12-7-10-8-5--------5-7---0-8-7-5------|
H |-------------------------------5--------------------|
G |-----------------------------5----------------------|
D |----------------------------------------------------|
A |----------------------------------------------------|
E |----------------------------------------------------|